ISO-10303-21;
HEADER;
FILE_DESCRIPTION (( 'STEP AP203' ),
    '1' );
FILE_NAME ('BK7-SPDBSP-25.4-505.STEP',
    '2020-12-22T02:22:09',
    ( '' ),
    ( '' ),
    'SwSTEP 2.0',
    'SolidWorks 2020',
    '' );
FILE_SCHEMA (( 'CONFIG_CONTROL_DESIGN' ));
ENDSEC;

DATA;
#1 = PERSON_AND_ORGANIZATION ( #71, #143 ) ;
#2 = APPROVAL_DATE_TIME ( #154, #124 ) ;
#3 = VERTEX_POINT ( 'NONE', #63 ) ;
#4 = DIRECTION ( 'NONE',  ( -0.000000000000000000, 0.000000000000000000, 1.000000000000000000 ) ) ;
#5 = PERSON_AND_ORGANIZATION ( #71, #143 ) ;
#6 = CYLINDRICAL_SURFACE ( 'NONE', #121, 12.69999999999999929 ) ;
#7 =( NAMED_UNIT ( * ) SI_UNIT ( $, .STERADIAN. ) SOLID_ANGLE_UNIT ( ) );
#8 = LOCAL_TIME ( 10, 22, 9.000000000000000000, #53 ) ;
#9 = ADVANCED_BREP_SHAPE_REPRESENTATION ( 'BK7-SPDBSP-25.4-505', ( #22, #155 ), #172 ) ;
#10 = CALENDAR_DATE ( 2020, 22, 12 ) ;
#11 = PERSON_AND_ORGANIZATION_ROLE ( 'design_owner' ) ;
#12 = EDGE_LOOP ( 'NONE', ( #139, #51, #120, #112 ) ) ;
#13 = PERSON_AND_ORGANIZATION_ROLE ( 'creator' ) ;
#14 = CIRCLE ( 'NONE', #116, 12.69999999999999929 ) ;
#15 = SECURITY_CLASSIFICATION_LEVEL ( 'unclassified' ) ;
#16 = APPLICATION_CONTEXT ( 'configuration controlled 3d designs of mechanical parts and assemblies' ) ;
#17 = CARTESIAN_POINT ( 'NONE',  ( -1.187907395172932594E-15, 1.555301434917138433E-15, -12.69999999999999929 ) ) ;
#18 = DIRECTION ( 'NONE',  ( 0.000000000000000000, 0.000000000000000000, 1.000000000000000000 ) ) ;
#19 = APPROVAL_DATE_TIME ( #23, #77 ) ;
#20 = CARTESIAN_POINT ( 'NONE',  ( -5.939536975864662969E-16, 12.69999999999999929, 0.000000000000000000 ) ) ;
#21 = VERTEX_POINT ( 'NONE', #144 ) ;
#22 = MANIFOLD_SOLID_BREP ( 'Ðý×', #74 ) ;
#23 = DATE_AND_TIME ( #135, #43 ) ;
#24 =( NAMED_UNIT ( * ) PLANE_ANGLE_UNIT ( ) SI_UNIT ( $, .RADIAN. ) );
#25 = APPROVAL_PERSON_ORGANIZATION ( #138, #124, #68 ) ;
#26 = PERSON_AND_ORGANIZATION ( #71, #143 ) ;
#27 = APPROVAL_ROLE ( '' ) ;
#28 = CC_DESIGN_DATE_AND_TIME_ASSIGNMENT ( #136, #164, ( #157 ) ) ;
#29 = MECHANICAL_CONTEXT ( 'NONE', #103, 'mechanical' ) ;
#30 = VERTEX_POINT ( 'NONE', #119 ) ;
#31 = CC_DESIGN_PERSON_AND_ORGANIZATION_ASSIGNMENT ( #142, #38, ( #168 ) ) ;
#32 = ORIENTED_EDGE ( 'NONE', *, *, #55, .T. ) ;
#33 = VECTOR ( 'NONE', #34, 1000.000000000000000 ) ;
#34 = DIRECTION ( 'NONE',  ( -1.000000000000000000, -0.000000000000000000, -0.000000000000000000 ) ) ;
#35 = FACE_OUTER_BOUND ( 'NONE', #158, .T. ) ;
#36 = SHAPE_DEFINITION_REPRESENTATION ( #147, #9 ) ;
#37 = FACE_OUTER_BOUND ( 'NONE', #12, .T. ) ;
#38 = PERSON_AND_ORGANIZATION_ROLE ( 'design_supplier' ) ;
#39 = DATE_AND_TIME ( #10, #8 ) ;
#40 = PERSON_AND_ORGANIZATION ( #71, #143 ) ;
#41 = VECTOR ( 'NONE', #150, 1000.000000000000000 ) ;
#42 = LOCAL_TIME ( 10, 22, 9.000000000000000000, #123 ) ;
#43 = LOCAL_TIME ( 10, 22, 9.000000000000000000, #62 ) ;
#44 = AXIS2_PLACEMENT_3D ( 'NONE', #171, #90, #160 ) ;
#45 = DIRECTION ( 'NONE',  ( -1.000000000000000000, -0.000000000000000000, -0.000000000000000000 ) ) ;
#46 = DIRECTION ( 'NONE',  ( -1.000000000000000000, -0.000000000000000000, -0.000000000000000000 ) ) ;
#47 = DIRECTION ( 'NONE',  ( 0.000000000000000000, 0.000000000000000000, 1.000000000000000000 ) ) ;
#48 = CARTESIAN_POINT ( 'NONE',  ( 3.499999999999998224, 0.000000000000000000, 0.000000000000000000 ) ) ;
#49 =( LENGTH_UNIT ( ) NAMED_UNIT ( * ) SI_UNIT ( .MILLI., .METRE. ) );
#50 = PERSON_AND_ORGANIZATION ( #71, #143 ) ;
#51 = ORIENTED_EDGE ( 'NONE', *, *, #92, .T. ) ;
#52 = CARTESIAN_POINT ( 'NONE',  ( 0.000000000000000000, 0.000000000000000000, 0.000000000000000000 ) ) ;
#53 = COORDINATED_UNIVERSAL_TIME_OFFSET ( 8, 0, .AHEAD. ) ;
#54 = SECURITY_CLASSIFICATION ( '', '', #15 ) ;
#55 = EDGE_CURVE ( 'NONE', #3, #21, #96, .T. ) ;
#56 = CC_DESIGN_PERSON_AND_ORGANIZATION_ASSIGNMENT ( #26, #13, ( #157 ) ) ;
#57 = ADVANCED_FACE ( 'NONE', ( #37 ), #80, .T. ) ;
#58 = ORIENTED_EDGE ( 'NONE', *, *, #105, .T. ) ;
#59 = CC_DESIGN_PERSON_AND_ORGANIZATION_ASSIGNMENT ( #1, #100, ( #168 ) ) ;
#60 = UNCERTAINTY_MEASURE_WITH_UNIT (LENGTH_MEASURE( 1.000000000000000082E-05 ), #49, 'distance_accuracy_value', 'NONE');
#61 = CARTESIAN_POINT ( 'NONE',  ( 3.499999999999999112, 12.69999999999999929, 0.000000000000000000 ) ) ;
#62 = COORDINATED_UNIVERSAL_TIME_OFFSET ( 8, 0, .AHEAD. ) ;
#63 = CARTESIAN_POINT ( 'NONE',  ( 3.499999999999998224, 1.555301434917138433E-15, -12.69999999999999929 ) ) ;
#64 = CIRCLE ( 'NONE', #165, 12.69999999999999929 ) ;
#65 = CC_DESIGN_APPROVAL ( #98, ( #168 ) ) ;
#66 = DATE_TIME_ROLE ( 'classification_date' ) ;
#67 = DIRECTION ( 'NONE',  ( 1.000000000000000000, 0.000000000000000000, 0.000000000000000000 ) ) ;
#68 = APPROVAL_ROLE ( '' ) ;
#69 = AXIS2_PLACEMENT_3D ( 'NONE', #117, #102, #152 ) ;
#70 = APPLICATION_PROTOCOL_DEFINITION ( 'international standard', 'config_control_design', 1994, #103 ) ;
#71 = PERSON ( 'UNSPECIFIED', 'UNSPECIFIED', 'UNSPECIFIED', ('UNSPECIFIED'), ('UNSPECIFIED'), ('UNSPECIFIED') ) ;
#72 = LOCAL_TIME ( 10, 22, 9.000000000000000000, #83 ) ;
#73 = CC_DESIGN_PERSON_AND_ORGANIZATION_ASSIGNMENT ( #122, #11, ( #130 ) ) ;
#74 = CLOSED_SHELL ( 'NONE', ( #57, #156, #114, #82 ) ) ;
#75 = EDGE_CURVE ( 'NONE', #85, #30, #125, .T. ) ;
#76 = CARTESIAN_POINT ( 'NONE',  ( 0.000000000000000000, 1.555301434917138433E-15, -12.69999999999999929 ) ) ;
#77 = APPROVAL ( #173, 'UNSPECIFIED' ) ;
#78 = FACE_OUTER_BOUND ( 'NONE', #110, .T. ) ;
#79 = CARTESIAN_POINT ( 'NONE',  ( 0.000000000000000000, 0.000000000000000000, 0.000000000000000000 ) ) ;
#80 = CYLINDRICAL_SURFACE ( 'NONE', #44, 12.69999999999999929 ) ;
#81 = LINE ( 'NONE', #76, #33 ) ;
#82 = ADVANCED_FACE ( 'NONE', ( #35 ), #89, .F. ) ;
#83 = COORDINATED_UNIVERSAL_TIME_OFFSET ( 8, 0, .AHEAD. ) ;
#84 = CALENDAR_DATE ( 2020, 22, 12 ) ;
#85 = VERTEX_POINT ( 'NONE', #17 ) ;
#86 = AXIS2_PLACEMENT_3D ( 'NONE', #61, #131, #4 ) ;
#87 = ORIENTED_EDGE ( 'NONE', *, *, #137, .F. ) ;
#88 = CARTESIAN_POINT ( 'NONE',  ( -1.187907395172932594E-15, 0.000000000000000000, 0.000000000000000000 ) ) ;
#89 = PLANE ( 'NONE',  #166 ) ;
#90 = DIRECTION ( 'NONE',  ( -1.000000000000000000, -0.000000000000000000, -0.000000000000000000 ) ) ;
#91 = DIRECTION ( 'NONE',  ( -1.000000000000000000, -0.000000000000000000, -0.000000000000000000 ) ) ;
#92 = EDGE_CURVE ( 'NONE', #3, #85, #81, .T. ) ;
#93 = ORIENTED_EDGE ( 'NONE', *, *, #75, .T. ) ;
#94 = APPLICATION_PROTOCOL_DEFINITION ( 'international standard', 'config_control_design', 1994, #16 ) ;
#95 = CC_DESIGN_DATE_AND_TIME_ASSIGNMENT ( #108, #66, ( #54 ) ) ;
#96 = CIRCLE ( 'NONE', #141, 12.69999999999999929 ) ;
#97 = PERSON_AND_ORGANIZATION_ROLE ( 'classification_officer' ) ;
#98 = APPROVAL ( #140, 'UNSPECIFIED' ) ;
#99 = CC_DESIGN_APPROVAL ( #77, ( #54 ) ) ;
#100 = PERSON_AND_ORGANIZATION_ROLE ( 'creator' ) ;
#101 = APPROVAL_PERSON_ORGANIZATION ( #40, #98, #27 ) ;
#102 = DIRECTION ( 'NONE',  ( -1.000000000000000000, -0.000000000000000000, -0.000000000000000000 ) ) ;
#103 = APPLICATION_CONTEXT ( 'configuration controlled 3d designs of mechanical parts and assemblies' ) ;
#104 = FACE_OUTER_BOUND ( 'NONE', #148, .T. ) ;
#105 = EDGE_CURVE ( 'NONE', #30, #85, #14, .T. ) ;
#106 = APPROVAL_PERSON_ORGANIZATION ( #5, #77, #175 ) ;
#107 = DIRECTION ( 'NONE',  ( 0.000000000000000000, 0.000000000000000000, 1.000000000000000000 ) ) ;
#108 = DATE_AND_TIME ( #161, #128 ) ;
#109 = DIRECTION ( 'NONE',  ( 0.000000000000000000, 0.000000000000000000, 1.000000000000000000 ) ) ;
#110 = EDGE_LOOP ( 'NONE', ( #87, #162 ) ) ;
#111 = CALENDAR_DATE ( 2020, 22, 12 ) ;
#112 = ORIENTED_EDGE ( 'NONE', *, *, #129, .F. ) ;
#113 = APPROVAL_STATUS ( 'not_yet_approved' ) ;
#114 = ADVANCED_FACE ( 'NONE', ( #78 ), #132, .F. ) ;
#115 = DESIGN_CONTEXT ( 'detailed design', #16, 'design' ) ;
#116 = AXIS2_PLACEMENT_3D ( 'NONE', #88, #46, #18 ) ;
#117 = CARTESIAN_POINT ( 'NONE',  ( -1.187907395172932594E-15, 0.000000000000000000, 0.000000000000000000 ) ) ;
#118 = CARTESIAN_POINT ( 'NONE',  ( 3.499999999999998224, 0.000000000000000000, 0.000000000000000000 ) ) ;
#119 = CARTESIAN_POINT ( 'NONE',  ( -1.187907395172932594E-15, 0.000000000000000000, 12.69999999999999929 ) ) ;
#120 = ORIENTED_EDGE ( 'NONE', *, *, #105, .F. ) ;
#121 = AXIS2_PLACEMENT_3D ( 'NONE', #79, #45, #133 ) ;
#122 = PERSON_AND_ORGANIZATION ( #71, #143 ) ;
#123 = COORDINATED_UNIVERSAL_TIME_OFFSET ( 8, 0, .AHEAD. ) ;
#124 = APPROVAL ( #113, 'UNSPECIFIED' ) ;
#125 = CIRCLE ( 'NONE', #69, 12.69999999999999929 ) ;
#126 = APPROVAL_DATE_TIME ( #39, #98 ) ;
#127 = CC_DESIGN_APPROVAL ( #124, ( #157 ) ) ;
#128 = LOCAL_TIME ( 10, 22, 9.000000000000000000, #145 ) ;
#129 = EDGE_CURVE ( 'NONE', #21, #30, #134, .T. ) ;
#130 = PRODUCT ( 'BK7-SPDBSP-25.4-505', 'BK7-SPDBSP-25.4-505', '', ( #29 ) ) ;
#131 = DIRECTION ( 'NONE',  ( -1.000000000000000000, 0.000000000000000000, -0.000000000000000000 ) ) ;
#132 = PLANE ( 'NONE',  #86 ) ;
#133 = DIRECTION ( 'NONE',  ( 0.000000000000000000, 0.000000000000000000, 1.000000000000000000 ) ) ;
#134 = LINE ( 'NONE', #170, #41 ) ;
#135 = CALENDAR_DATE ( 2020, 22, 12 ) ;
#136 = DATE_AND_TIME ( #84, #72 ) ;
#137 = EDGE_CURVE ( 'NONE', #21, #3, #64, .T. ) ;
#138 = PERSON_AND_ORGANIZATION ( #71, #143 ) ;
#139 = ORIENTED_EDGE ( 'NONE', *, *, #137, .T. ) ;
#140 = APPROVAL_STATUS ( 'not_yet_approved' ) ;
#141 = AXIS2_PLACEMENT_3D ( 'NONE', #48, #91, #107 ) ;
#142 = PERSON_AND_ORGANIZATION ( #71, #143 ) ;
#143 = ORGANIZATION ( 'UNSPECIFIED', 'UNSPECIFIED', '' ) ;
#144 = CARTESIAN_POINT ( 'NONE',  ( 3.499999999999998224, 0.000000000000000000, 12.69999999999999929 ) ) ;
#145 = COORDINATED_UNIVERSAL_TIME_OFFSET ( 8, 0, .AHEAD. ) ;
#146 = DIRECTION ( 'NONE',  ( 1.000000000000000000, 0.000000000000000000, 0.000000000000000000 ) ) ;
#147 = PRODUCT_DEFINITION_SHAPE ( 'NONE', 'NONE',  #157 ) ;
#148 = EDGE_LOOP ( 'NONE', ( #163, #32, #153, #174 ) ) ;
#149 = CC_DESIGN_PERSON_AND_ORGANIZATION_ASSIGNMENT ( #50, #97, ( #54 ) ) ;
#150 = DIRECTION ( 'NONE',  ( -1.000000000000000000, -0.000000000000000000, -0.000000000000000000 ) ) ;
#151 = PRODUCT_RELATED_PRODUCT_CATEGORY ( 'detail', '', ( #130 ) ) ;
#152 = DIRECTION ( 'NONE',  ( 0.000000000000000000, 0.000000000000000000, 1.000000000000000000 ) ) ;
#153 = ORIENTED_EDGE ( 'NONE', *, *, #129, .T. ) ;
#154 = DATE_AND_TIME ( #111, #42 ) ;
#155 = AXIS2_PLACEMENT_3D ( 'NONE', #52, #109, #67 ) ;
#156 = ADVANCED_FACE ( 'NONE', ( #104 ), #6, .T. ) ;
#157 = PRODUCT_DEFINITION ( 'UNKNOWN', '', #168, #115 ) ;
#158 = EDGE_LOOP ( 'NONE', ( #58, #93 ) ) ;
#159 = CC_DESIGN_SECURITY_CLASSIFICATION ( #54, ( #168 ) ) ;
#160 = DIRECTION ( 'NONE',  ( 0.000000000000000000, 0.000000000000000000, 1.000000000000000000 ) ) ;
#161 = CALENDAR_DATE ( 2020, 22, 12 ) ;
#162 = ORIENTED_EDGE ( 'NONE', *, *, #55, .F. ) ;
#163 = ORIENTED_EDGE ( 'NONE', *, *, #92, .F. ) ;
#164 = DATE_TIME_ROLE ( 'creation_date' ) ;
#165 = AXIS2_PLACEMENT_3D ( 'NONE', #118, #169, #47 ) ;
#166 = AXIS2_PLACEMENT_3D ( 'NONE', #20, #146, #167 ) ;
#167 = DIRECTION ( 'NONE',  ( 0.000000000000000000, 0.000000000000000000, -1.000000000000000000 ) ) ;
#168 = PRODUCT_DEFINITION_FORMATION_WITH_SPECIFIED_SOURCE ( 'ANY', '', #130, .NOT_KNOWN. ) ;
#169 = DIRECTION ( 'NONE',  ( -1.000000000000000000, -0.000000000000000000, -0.000000000000000000 ) ) ;
#170 = CARTESIAN_POINT ( 'NONE',  ( 0.000000000000000000, 0.000000000000000000, 12.69999999999999929 ) ) ;
#171 = CARTESIAN_POINT ( 'NONE',  ( 0.000000000000000000, 0.000000000000000000, 0.000000000000000000 ) ) ;
#172 =( GEOMETRIC_REPRESENTATION_CONTEXT ( 3 ) GLOBAL_UNCERTAINTY_ASSIGNED_CONTEXT ( ( #60 ) ) GLOBAL_UNIT_ASSIGNED_CONTEXT ( ( #49, #24, #7 ) ) REPRESENTATION_CONTEXT ( 'NONE', 'WORKASPACE' ) );
#173 = APPROVAL_STATUS ( 'not_yet_approved' ) ;
#174 = ORIENTED_EDGE ( 'NONE', *, *, #75, .F. ) ;
#175 = APPROVAL_ROLE ( '' ) ;
ENDSEC;
END-ISO-10303-21;
